  0
SECTION
  2
HEADER
  9
$ACADVER
  1
AC1014
  9
$HANDSEED
  5
FFFF
  9
$MEASUREMENT
 70
     1
  0
ENDSEC
  0
SECTION
  2
TABLES
  0
TABLE
  2
VPORT
  5
8
330
0
100
AcDbSymbolTable
 70
     4
  0
VPORT
  5
2E
330
8
100
AcDbSymbolTableRecord
100
AcDbViewportTableRecord
  2
*ACTIVE
 70
     0
 10
0.0
 20
0.0
 11
1.0
 21
1.0
 12
210.0
 22
148.5
 13
0.0
 23
0.0
 14
10.0
 24
10.0
 15
10.0
 25
10.0
 16
0.0
 26
0.0
 36
1.0
 17
0.0
 27
0.0
 37
0.0
 40
341.0
 41
1.24
 42
50.0
 43
0.0
 44
0.0
 50
0.0
 51
0.0
 71
     0
 72
   100
 73
     1
 74
     3
 75
     0
 76
     0
 77
     0
 78
     0
  0
ENDTAB
  0
TABLE
  2
LTYPE
  5
5
330
0
100
AcDbSymbolTable
 70
     1
  0
LTYPE
  5
14
330
5
100
AcDbSymbolTableRecord
100
AcDbLinetypeTableRecord
  2
BYBLOCK
 70
     0
  3

 72
    65
 73
     0
 40
0.0
  0
LTYPE
  5
15
330
5
100
AcDbSymbolTableRecord
100
AcDbLinetypeTableRecord
  2
BYLAYER
 70
     0
  3

 72
    65
 73
     0
 40
0.0
  0
LTYPE
  5
16
330
5
100
AcDbSymbolTableRecord
100
AcDbLinetypeTableRecord
  2
CONTINUOUS
 70
     0
  3
Solid line
 72
    65
 73
     0
 40
0.0
  0
ENDTAB
  0
TABLE
  2
LAYER
  5
2
100
AcDbSymbolTable
 70
1
  0
LAYER
  5
50
100
AcDbSymbolTableRecord
100
AcDbLayerTableRecord
  2
0
 70
0
  6
CONTINUOUS
  0
ENDTAB
  0
TABLE
  2
STYLE
  5
3
330
0
100
AcDbSymbolTable
 70
     1
  0
STYLE
  5
11
330
3
100
AcDbSymbolTableRecord
100
AcDbTextStyleTableRecord
  2
STANDARD
 70
     0
 40
0.0
 41
1.0
 50
0.0
 71
     0
 42
2.5
  3
txt
  4

  0
ENDTAB
  0
TABLE
  2
VIEW
  5
6
330
0
100
AcDbSymbolTable
 70
     0
  0
ENDTAB
  0
TABLE
  2
UCS
  5
7
330
0
100
AcDbSymbolTable
 70
     0
  0
ENDTAB
  0
TABLE
  2
APPID
  5
9
330
0
100
AcDbSymbolTable
 70
     2
  0
APPID
  5
12
330
9
100
AcDbSymbolTableRecord
100
AcDbRegAppTableRecord
  2
ACAD
 70
     0
  0
ENDTAB
  0
TABLE
  2
DIMSTYLE
  5
A
330
0
100
AcDbSymbolTable
 70
     1
  0
DIMSTYLE
105
27
330
A
100
AcDbSymbolTableRecord
100
AcDbDimStyleTableRecord
  2
ISO-25
 70
     0
  3

  4

  5

  6

  7

 40
1.0
 41
2.5
 42
0.625
 43
3.75
 44
1.25
 45
0.0
 46
0.0
 47
0.0
 48
0.0
140
2.5
141
2.5
142
0.0
143
0.03937007874016
144
1.0
145
0.0
146
1.0
147
0.625
 71
     0
 72
     0
 73
     0
 74
     0
 75
     0
 76
     0
 77
     1
 78
     8
170
     0
171
     3
172
     1
173
     0
174
     0
175
     0
176
     0
177
     0
178
     0
270
     2
271
     2
272
     2
273
     2
274
     3
340
11
275
     0
280
     0
281
     0
282
     0
283
     0
284
     8
285
     0
286
     0
287
     3
288
     0
  0
ENDTAB
  0
TABLE
  2
BLOCK_RECORD
  5
1
330
0
100
AcDbSymbolTable
 70
     1
  0
BLOCK_RECORD
  5
1F
330
1
100
AcDbSymbolTableRecord
100
AcDbBlockTableRecord
  2
*MODEL_SPACE
  0
BLOCK_RECORD
  5
1B
330
1
100
AcDbSymbolTableRecord
100
AcDbBlockTableRecord
  2
*PAPER_SPACE
  0
ENDTAB
  0
ENDSEC
  0
SECTION
  2
BLOCKS
  0
BLOCK
  5
20
330
1F
100
AcDbEntity
  8
0
100
AcDbBlockBegin
  2
*MODEL_SPACE
 70
     0
 10
0.0
 20
0.0
 30
0.0
  3
*MODEL_SPACE
  1

  0
ENDBLK
  5
21
330
1F
100
AcDbEntity
  8
0
100
AcDbBlockEnd
  0
BLOCK
  5
1C
330
1B
100
AcDbEntity
 67
     1
  8
0
100
AcDbBlockBegin
  2
*PAPER_SPACE
  1

  0
ENDBLK
  5
1D
330
1B
100
AcDbEntity
 67
     1
  8
0
100
AcDbBlockEnd
  0
ENDSEC
  0
SECTION
  2
ENTITIES
  0
LWPOLYLINE
  5
100
100
AcDbEntity
  8
0
 62
7
100
AcDbPolyline
 90
2
 70
0
 10
106.177689
 20
18.905506
 30
0.0
 10
106.055689
 20
18.997528
 30
0.0
  0
LWPOLYLINE
  5
101
100
AcDbEntity
  8
0
 62
7
100
AcDbPolyline
 90
2
 70
0
 10
106.287676
 20
18.807504
 30
0.0
 10
106.177689
 20
18.905506
 30
0.0
  0
LWPOLYLINE
  5
102
100
AcDbEntity
  8
0
 62
7
100
AcDbPolyline
 90
2
 70
0
 10
106.385677
 20
18.697517
 30
0.0
 10
106.287676
 20
18.807504
 30
0.0
  0
LWPOLYLINE
  5
103
100
AcDbEntity
  8
0
 62
7
100
AcDbPolyline
 90
2
 70
0
 10
106.473678
 20
18.579513
 30
0.0
 10
106.385677
 20
18.697517
 30
0.0
  0
LWPOLYLINE
  5
104
100
AcDbEntity
  8
0
 62
7
100
AcDbPolyline
 90
2
 70
0
 10
106.547682
 20
18.451507
 30
0.0
 10
106.473678
 20
18.579513
 30
0.0
  0
LWPOLYLINE
  5
105
100
AcDbEntity
  8
0
 62
7
100
AcDbPolyline
 90
2
 70
0
 10
106.611685
 20
18.315511
 30
0.0
 10
106.547682
 20
18.451507
 30
0.0
  0
LWPOLYLINE
  5
106
100
AcDbEntity
  8
0
 62
7
100
AcDbPolyline
 90
2
 70
0
 10
106.661691
 20
18.167530
 30
0.0
 10
106.611685
 20
18.315511
 30
0.0
  0
LWPOLYLINE
  5
107
100
AcDbEntity
  8
0
 62
7
100
AcDbPolyline
 90
2
 70
0
 10
106.701669
 20
18.011505
 30
0.0
 10
106.661691
 20
18.167530
 30
0.0
  0
LWPOLYLINE
  5
108
100
AcDbEntity
  8
0
 62
7
100
AcDbPolyline
 90
2
 70
0
 10
106.727678
 20
17.845506
 30
0.0
 10
106.701749
 20
18.011505
 30
0.0
  0
LWPOLYLINE
  5
109
100
AcDbEntity
  8
0
 62
7
100
AcDbPolyline
 90
2
 70
0
 10
106.743685
 20
17.671516
 30
0.0
 10
106.727546
 20
17.845506
 30
0.0
  0
LWPOLYLINE
  5
10a
100
AcDbEntity
  8
0
 62
7
100
AcDbPolyline
 90
2
 70
0
 10
106.747680
 20
17.485513
 30
0.0
 10
106.743712
 20
17.671516
 30
0.0
  0
LWPOLYLINE
  5
10b
100
AcDbEntity
  8
0
 62
7
100
AcDbPolyline
 90
2
 70
0
 10
122.239670
 20
19.519524
 30
0.0
 10
106.747680
 20
17.485513
 30
0.0
  0
LWPOLYLINE
  5
10c
100
AcDbEntity
  8
0
 62
7
100
AcDbPolyline
 90
2
 70
0
 10
122.047661
 20
20.975526
 30
0.0
 10
122.239670
 20
19.519524
 30
0.0
  0
LWPOLYLINE
  5
10d
100
AcDbEntity
  8
0
 62
7
100
AcDbPolyline
 90
2
 70
0
 10
121.263675
 20
20.975526
 30
0.0
 10
122.047661
 20
20.975526
 30
0.0
  0
LWPOLYLINE
  5
10e
100
AcDbEntity
  8
0
 62
7
100
AcDbPolyline
 90
2
 70
0
 10
120.509691
 20
21.177509
 30
0.0
 10
121.263675
 20
20.975526
 30
0.0
  0
LWPOLYLINE
  5
10f
100
AcDbEntity
  8
0
 62
7
100
AcDbPolyline
 90
2
 70
0
 10
119.829686
 20
21.569516
 30
0.0
 10
120.509691
 20
21.177509
 30
0.0
  0
LWPOLYLINE
  5
110
100
AcDbEntity
  8
0
 62
7
100
AcDbPolyline
 90
2
 70
0
 10
119.277686
 20
22.123527
 30
0.0
 10
119.829686
 20
21.569516
 30
0.0
  0
LWPOLYLINE
  5
111
100
AcDbEntity
  8
0
 62
7
100
AcDbPolyline
 90
2
 70
0
 10
119.277686
 20
22.123527
 30
0.0
 10
118.885679
 20
22.801522
 30
0.0
  0
LWPOLYLINE
  5
112
100
AcDbEntity
  8
0
 62
7
100
AcDbPolyline
 90
2
 70
0
 10
118.681685
 20
23.557516
 30
0.0
 10
118.885679
 20
22.801522
 30
0.0
  0
LWPOLYLINE
  5
113
100
AcDbEntity
  8
0
 62
7
100
AcDbPolyline
 90
2
 70
0
 10
118.681685
 20
24.341529
 30
0.0
 10
118.681685
 20
23.557516
 30
0.0
  0
LWPOLYLINE
  5
114
100
AcDbEntity
  8
0
 62
7
100
AcDbPolyline
 90
2
 70
0
 10
118.885679
 20
25.097523
 30
0.0
 10
118.681685
 20
24.341529
 30
0.0
  0
LWPOLYLINE
  5
115
100
AcDbEntity
  8
0
 62
7
100
AcDbPolyline
 90
2
 70
0
 10
119.277686
 20
25.775518
 30
0.0
 10
118.885679
 20
25.097523
 30
0.0
  0
LWPOLYLINE
  5
116
100
AcDbEntity
  8
0
 62
7
100
AcDbPolyline
 90
2
 70
0
 10
119.277686
 20
25.775518
 30
0.0
 10
119.829686
 20
26.329529
 30
0.0
  0
LWPOLYLINE
  5
117
100
AcDbEntity
  8
0
 62
7
100
AcDbPolyline
 90
2
 70
0
 10
120.509691
 20
26.721509
 30
0.0
 10
119.829686
 20
26.329529
 30
0.0
  0
LWPOLYLINE
  5
118
100
AcDbEntity
  8
0
 62
7
100
AcDbPolyline
 90
2
 70
0
 10
120.509691
 20
26.721509
 30
0.0
 10
121.263675
 20
26.923518
 30
0.0
  0
LWPOLYLINE
  5
119
100
AcDbEntity
  8
0
 62
7
100
AcDbPolyline
 90
2
 70
0
 10
122.047661
 20
26.923518
 30
0.0
 10
121.263675
 20
26.923518
 30
0.0
  0
LWPOLYLINE
  5
11a
100
AcDbEntity
  8
0
 62
7
100
AcDbPolyline
 90
2
 70
0
 10
122.805666
 20
26.721509
 30
0.0
 10
122.047661
 20
26.923518
 30
0.0
  0
LWPOLYLINE
  5
11b
100
AcDbEntity
  8
0
 62
7
100
AcDbPolyline
 90
2
 70
0
 10
123.483687
 20
26.329529
 30
0.0
 10
122.805666
 20
26.721509
 30
0.0
  0
LWPOLYLINE
  5
11c
100
AcDbEntity
  8
0
 62
7
100
AcDbPolyline
 90
2
 70
0
 10
124.037672
 20
25.775518
 30
0.0
 10
123.483687
 20
26.329529
 30
0.0
  0
LWPOLYLINE
  5
11d
100
AcDbEntity
  8
0
 62
7
100
AcDbPolyline
 90
2
 70
0
 10
124.429679
 20
25.097523
 30
0.0
 10
124.037672
 20
25.775518
 30
0.0
  0
LWPOLYLINE
  5
11e
100
AcDbEntity
  8
0
 62
7
100
AcDbPolyline
 90
2
 70
0
 10
124.629677
 20
24.341529
 30
0.0
 10
124.429679
 20
25.097523
 30
0.0
  0
LWPOLYLINE
  5
11f
100
AcDbEntity
  8
0
 62
7
100
AcDbPolyline
 90
2
 70
0
 10
124.629677
 20
24.341529
 30
0.0
 10
125.213666
 20
19.909520
 30
0.0
  0
LWPOLYLINE
  5
120
100
AcDbEntity
  8
0
 62
7
100
AcDbPolyline
 90
2
 70
0
 10
134.137691
 20
21.081518
 30
0.0
 10
125.213666
 20
19.909520
 30
0.0
  0
LWPOLYLINE
  5
121
100
AcDbEntity
  8
0
 62
7
100
AcDbPolyline
 90
2
 70
0
 10
133.945683
 20
22.541516
 30
0.0
 10
134.137691
 20
21.081518
 30
0.0
  0
LWPOLYLINE
  5
122
100
AcDbEntity
  8
0
 62
7
100
AcDbPolyline
 90
2
 70
0
 10
133.161670
 20
22.541516
 30
0.0
 10
133.945683
 20
22.541516
 30
0.0
  0
LWPOLYLINE
  5
123
100
AcDbEntity
  8
0
 62
7
100
AcDbPolyline
 90
2
 70
0
 10
132.405676
 20
22.743525
 30
0.0
 10
133.161670
 20
22.541516
 30
0.0
  0
LWPOLYLINE
  5
124
100
AcDbEntity
  8
0
 62
7
100
AcDbPolyline
 90
2
 70
0
 10
131.727681
 20
23.135505
 30
0.0
 10
132.405676
 20
22.743525
 30
0.0
  0
LWPOLYLINE
  5
125
100
AcDbEntity
  8
0
 62
7
100
AcDbPolyline
 90
2
 70
0
 10
131.173670
 20
23.689516
 30
0.0
 10
131.727681
 20
23.135505
 30
0.0
  0
LWPOLYLINE
  5
126
100
AcDbEntity
  8
0
 62
7
100
AcDbPolyline
 90
2
 70
0
 10
131.173670
 20
23.689516
 30
0.0
 10
130.783674
 20
24.367511
 30
0.0
  0
LWPOLYLINE
  5
127
100
AcDbEntity
  8
0
 62
7
100
AcDbPolyline
 90
2
 70
0
 10
130.579680
 20
25.125516
 30
0.0
 10
130.783674
 20
24.367511
 30
0.0
  0
LWPOLYLINE
  5
128
100
AcDbEntity
  8
0
 62
7
100
AcDbPolyline
 90
3
 70
0
 10
130.579680
 20
25.125516
 30
0.0
 10
130.579680
 20
25.907518
 30
0.0
 10
130.783674
 20
26.663512
 30
0.0
  0
LWPOLYLINE
  5
129
100
AcDbEntity
  8
0
 62
7
100
AcDbPolyline
 90
2
 70
0
 10
131.173670
 20
27.341507
 30
0.0
 10
130.783674
 20
26.663512
 30
0.0
  0
LWPOLYLINE
  5
12a
100
AcDbEntity
  8
0
 62
7
100
AcDbPolyline
 90
3
 70
0
 10
131.173670
 20
27.341507
 30
0.0
 10
131.727681
 20
27.895518
 30
0.0
 10
132.405676
 20
28.287525
 30
0.0
  0
LWPOLYLINE
  5
12b
100
AcDbEntity
  8
0
 62
7
100
AcDbPolyline
 90
2
 70
0
 10
133.161670
 20
28.491519
 30
0.0
 10
132.405676
 20
28.287525
 30
0.0
  0
LWPOLYLINE
  5
12c
100
AcDbEntity
  8
0
 62
7
100
AcDbPolyline
 90
2
 70
0
 10
133.161670
 20
28.491519
 30
0.0
 10
133.945683
 20
28.491519
 30
0.0
  0
LWPOLYLINE
  5
12d
100
AcDbEntity
  8
0
 62
7
100
AcDbPolyline
 90
2
 70
0
 10
134.703688
 20
28.287525
 30
0.0
 10
133.945683
 20
28.491519
 30
0.0
  0
LWPOLYLINE
  5
12e
100
AcDbEntity
  8
0
 62
7
100
AcDbPolyline
 90
2
 70
0
 10
135.379672
 20
27.895518
 30
0.0
 10
134.703688
 20
28.287525
 30
0.0
  0
LWPOLYLINE
  5
12f
100
AcDbEntity
  8
0
 62
7
100
AcDbPolyline
 90
2
 70
0
 10
135.935667
 20
27.341507
 30
0.0
 10
135.379672
 20
27.895518
 30
0.0
  0
LWPOLYLINE
  5
130
100
AcDbEntity
  8
0
 62
7
100
AcDbPolyline
 90
2
 70
0
 10
136.325663
 20
26.663512
 30
0.0
 10
135.935667
 20
27.341507
 30
0.0
  0
LWPOLYLINE
  5
131
100
AcDbEntity
  8
0
 62
7
100
AcDbPolyline
 90
3
 70
0
 10
136.325663
 20
26.663512
 30
0.0
 10
136.529683
 20
25.907518
 30
0.0
 10
137.111687
 20
21.473525
 30
0.0
  0
LWPOLYLINE
  5
132
100
AcDbEntity
  8
0
 62
7
100
AcDbPolyline
 90
2
 70
0
 10
146.037670
 20
22.643513
 30
0.0
 10
137.111687
 20
21.473525
 30
0.0
  0
LWPOLYLINE
  5
133
100
AcDbEntity
  8
0
 62
7
100
AcDbPolyline
 90
2
 70
0
 10
145.843678
 20
24.107505
 30
0.0
 10
146.037670
 20
22.643513
 30
0.0
  0
LWPOLYLINE
  5
134
100
AcDbEntity
  8
0
 62
7
100
AcDbPolyline
 90
3
 70
0
 10
145.843678
 20
24.107505
 30
0.0
 10
145.061675
 20
24.107505
 30
0.0
 10
144.303697
 20
24.309515
 30
0.0
  0
LWPOLYLINE
  5
135
100
AcDbEntity
  8
0
 62
7
100
AcDbPolyline
 90
2
 70
0
 10
143.625676
 20
24.701521
 30
0.0
 10
144.303697
 20
24.309515
 30
0.0
  0
LWPOLYLINE
  5
136
100
AcDbEntity
  8
0
 62
7
100
AcDbPolyline
 90
2
 70
0
 10
143.625676
 20
24.701521
 30
0.0
 10
143.071665
 20
25.255506
 30
0.0
  0
LWPOLYLINE
  5
137
100
AcDbEntity
  8
0
 62
7
100
AcDbPolyline
 90
2
 70
0
 10
142.679685
 20
25.933527
 30
0.0
 10
143.071665
 20
25.255506
 30
0.0
  0
LWPOLYLINE
  5
138
100
AcDbEntity
  8
0
 62
7
100
AcDbPolyline
 90
2
 70
0
 10
142.477675
 20
26.691505
 30
0.0
 10
142.679685
 20
25.933527
 30
0.0
  0
LWPOLYLINE
  5
139
100
AcDbEntity
  8
0
 62
7
100
AcDbPolyline
 90
4
 70
0
 10
142.477675
 20
26.691505
 30
0.0
 10
142.477675
 20
27.473508
 30
0.0
 10
142.679685
 20
28.229528
 30
0.0
 10
143.071665
 20
28.909507
 30
0.0
  0
LWPOLYLINE
  5
13a
100
AcDbEntity
  8
0
 62
7
100
AcDbPolyline
 90
2
 70
0
 10
143.625676
 20
29.461508
 30
0.0
 10
143.071665
 20
28.909507
 30
0.0
  0
LWPOLYLINE
  5
13b
100
AcDbEntity
  8
0
 62
7
100
AcDbPolyline
 90
2
 70
0
 10
143.625676
 20
29.461508
 30
0.0
 10
144.303697
 20
29.853514
 30
0.0
  0
LWPOLYLINE
  5
13c
100
AcDbEntity
  8
0
 62
7
100
AcDbPolyline
 90
2
 70
0
 10
145.061675
 20
30.055524
 30
0.0
 10
144.303697
 20
29.853514
 30
0.0
  0
LWPOLYLINE
  5
13d
100
AcDbEntity
  8
0
 62
7
100
AcDbPolyline
 90
2
 70
0
 10
145.843678
 20
30.055524
 30
0.0
 10
145.061675
 20
30.055524
 30
0.0
  0
LWPOLYLINE
  5
13e
100
AcDbEntity
  8
0
 62
7
100
AcDbPolyline
 90
4
 70
0
 10
145.843678
 20
30.055524
 30
0.0
 10
146.599672
 20
29.853514
 30
0.0
 10
147.277693
 20
29.461508
 30
0.0
 10
147.831678
 20
28.909507
 30
0.0
  0
LWPOLYLINE
  5
13f
100
AcDbEntity
  8
0
 62
7
100
AcDbPolyline
 90
2
 70
0
 10
148.223684
 20
28.229528
 30
0.0
 10
147.831678
 20
28.909507
 30
0.0
  0
LWPOLYLINE
  5
140
100
AcDbEntity
  8
0
 62
7
100
AcDbPolyline
 90
2
 70
0
 10
148.425667
 20
27.473508
 30
0.0
 10
148.223684
 20
28.229528
 30
0.0
  0
LWPOLYLINE
  5
141
100
AcDbEntity
  8
0
 62
7
100
AcDbPolyline
 90
2
 70
0
 10
148.425667
 20
27.473508
 30
0.0
 10
149.011666
 20
23.035519
 30
0.0
  0
LWPOLYLINE
  5
142
100
AcDbEntity
  8
0
 62
7
100
AcDbPolyline
 90
2
 70
0
 10
157.935665
 20
24.205507
 30
0.0
 10
149.011666
 20
23.035519
 30
0.0
  0
LWPOLYLINE
  5
143
100
AcDbEntity
  8
0
 62
7
100
AcDbPolyline
 90
2
 70
0
 10
157.739662
 20
25.675505
 30
0.0
 10
157.935665
 20
24.205507
 30
0.0
  0
LWPOLYLINE
  5
144
100
AcDbEntity
  8
0
 62
7
100
AcDbPolyline
 90
2
 70
0
 10
156.957686
 20
25.675505
 30
0.0
 10
157.739662
 20
25.675505
 30
0.0
  0
LWPOLYLINE
  5
145
100
AcDbEntity
  8
0
 62
7
100
AcDbPolyline
 90
2
 70
0
 10
156.201692
 20
25.875530
 30
0.0
 10
156.957686
 20
25.675505
 30
0.0
  0
LWPOLYLINE
  5
146
100
AcDbEntity
  8
0
 62
7
100
AcDbPolyline
 90
2
 70
0
 10
155.521660
 20
26.269521
 30
0.0
 10
156.201692
 20
25.875530
 30
0.0
  0
LWPOLYLINE
  5
147
100
AcDbEntity
  8
0
 62
7
100
AcDbPolyline
 90
2
 70
0
 10
155.521660
 20
26.269521
 30
0.0
 10
154.969686
 20
26.821522
 30
0.0
  0
LWPOLYLINE
  5
148
100
AcDbEntity
  8
0
 62
7
100
AcDbPolyline
 90
2
 70
0
 10
154.577680
 20
27.501527
 30
0.0
 10
154.969686
 20
26.821522
 30
0.0
  0
LWPOLYLINE
  5
149
100
AcDbEntity
  8
0
 62
7
100
AcDbPolyline
 90
3
 70
0
 10
154.577680
 20
27.501527
 30
0.0
 10
154.375670
 20
28.255510
 30
0.0
 10
154.375670
 20
29.039524
 30
0.0
  0
LWPOLYLINE
  5
14a
100
AcDbEntity
  8
0
 62
7
100
AcDbPolyline
 90
2
 70
0
 10
154.577680
 20
29.797528
 30
0.0
 10
154.375670
 20
29.039524
 30
0.0
  0
LWPOLYLINE
  5
14b
100
AcDbEntity
  8
0
 62
7
100
AcDbPolyline
 90
3
 70
0
 10
154.577680
 20
29.797528
 30
0.0
 10
154.969686
 20
30.475523
 30
0.0
 10
155.521660
 20
31.029508
 30
0.0
  0
LWPOLYLINE
  5
14c
100
AcDbEntity
  8
0
 62
7
100
AcDbPolyline
 90
2
 70
0
 10
156.201692
 20
31.421515
 30
0.0
 10
155.521660
 20
31.029508
 30
0.0
  0
LWPOLYLINE
  5
14d
100
AcDbEntity
  8
0
 62
7
100
AcDbPolyline
 90
4
 70
0
 10
156.201692
 20
31.421515
 30
0.0
 10
156.957686
 20
31.621513
 30
0.0
 10
157.739662
 20
31.621513
 30
0.0
 10
158.497693
 20
31.421514
 30
0.0
  0
LWPOLYLINE
  5
14e
100
AcDbEntity
  8
0
 62
7
100
AcDbPolyline
 90
2
 70
0
 10
159.175688
 20
31.029508
 30
0.0
 10
158.497693
 20
31.421515
 30
0.0
  0
LWPOLYLINE
  5
14f
100
AcDbEntity
  8
0
 62
7
100
AcDbPolyline
 90
2
 70
0
 10
159.729673
 20
30.475523
 30
0.0
 10
159.175688
 20
31.029508
 30
0.0
  0
LWPOLYLINE
  5
150
100
AcDbEntity
  8
0
 62
7
100
AcDbPolyline
 90
2
 70
0
 10
160.121679
 20
29.797528
 30
0.0
 10
159.729673
 20
30.475523
 30
0.0
  0
LWPOLYLINE
  5
151
100
AcDbEntity
  8
0
 62
7
100
AcDbPolyline
 90
2
 70
0
 10
160.323662
 20
29.039524
 30
0.0
 10
160.121679
 20
29.797528
 30
0.0
  0
LWPOLYLINE
  5
152
100
AcDbEntity
  8
0
 62
7
100
AcDbPolyline
 90
2
 70
0
 10
160.323662
 20
29.039524
 30
0.0
 10
163.067682
 20
8.191521
 30
0.0
  0
LWPOLYLINE
  5
153
100
AcDbEntity
  8
0
 62
7
100
AcDbPolyline
 90
2
 70
0
 10
163.067682
 20
7.409519
 30
0.0
 10
163.067682
 20
8.191521
 30
0.0
  0
LWPOLYLINE
  5
154
100
AcDbEntity
  8
0
 62
7
100
AcDbPolyline
 90
2
 70
0
 10
163.067682
 20
7.409519
 30
0.0
 10
162.865673
 20
6.653525
 30
0.0
  0
LWPOLYLINE
  5
155
100
AcDbEntity
  8
0
 62
7
100
AcDbPolyline
 90
2
 70
0
 10
162.473693
 20
5.973519
 30
0.0
 10
162.865673
 20
6.653525
 30
0.0
  0
LWPOLYLINE
  5
156
100
AcDbEntity
  8
0
 62
7
100
AcDbPolyline
 90
2
 70
0
 10
161.921693
 20
5.421519
 30
0.0
 10
162.473693
 20
5.973519
 30
0.0
  0
LWPOLYLINE
  5
157
100
AcDbEntity
  8
0
 62
7
100
AcDbPolyline
 90
2
 70
0
 10
161.241687
 20
5.027528
 30
0.0
 10
161.921693
 20
5.421519
 30
0.0
  0
LWPOLYLINE
  5
158
100
AcDbEntity
  8
0
 62
7
100
AcDbPolyline
 90
2
 70
0
 10
160.485667
 20
4.827503
 30
0.0
 10
161.241687
 20
5.027528
 30
0.0
  0
LWPOLYLINE
  5
159
100
AcDbEntity
  8
0
 62
7
100
AcDbPolyline
 90
2
 70
0
 10
159.703691
 20
4.827503
 30
0.0
 10
160.485667
 20
4.827503
 30
0.0
  0
LWPOLYLINE
  5
15a
100
AcDbEntity
  8
0
 62
7
100
AcDbPolyline
 90
2
 70
0
 10
158.945686
 20
5.027528
 30
0.0
 10
159.703691
 20
4.827503
 30
0.0
  0
LWPOLYLINE
  5
15b
100
AcDbEntity
  8
0
 62
7
100
AcDbPolyline
 90
2
 70
0
 10
158.267665
 20
5.421519
 30
0.0
 10
158.945686
 20
5.027528
 30
0.0
  0
LWPOLYLINE
  5
15c
100
AcDbEntity
  8
0
 62
7
100
AcDbPolyline
 90
2
 70
0
 10
157.713680
 20
5.973519
 30
0.0
 10
158.267665
 20
5.421519
 30
0.0
  0
LWPOLYLINE
  5
15d
100
AcDbEntity
  8
0
 62
7
100
AcDbPolyline
 90
3
 70
0
 10
157.713680
 20
5.973519
 30
0.0
 10
157.321673
 20
6.653525
 30
0.0
 10
157.119690
 20
7.409519
 30
0.0
  0
LWPOLYLINE
  5
15e
100
AcDbEntity
  8
0
 62
7
100
AcDbPolyline
 90
2
 70
0
 10
157.119690
 20
8.191521
 30
0.0
 10
157.119690
 20
7.409519
 30
0.0
  0
LWPOLYLINE
  5
15f
100
AcDbEntity
  8
0
 62
7
100
AcDbPolyline
 90
2
 70
0
 10
157.321673
 20
8.949526
 30
0.0
 10
157.119690
 20
8.191521
 30
0.0
  0
LWPOLYLINE
  5
160
100
AcDbEntity
  8
0
 62
7
100
AcDbPolyline
 90
2
 70
0
 10
157.321673
 20
8.949526
 30
0.0
 10
157.713680
 20
9.627521
 30
0.0
  0
LWPOLYLINE
  5
161
100
AcDbEntity
  8
0
 62
7
100
AcDbPolyline
 90
2
 70
0
 10
158.267665
 20
10.181505
 30
0.0
 10
157.713680
 20
9.627521
 30
0.0
  0
LWPOLYLINE
  5
162
100
AcDbEntity
  8
0
 62
7
100
AcDbPolyline
 90
3
 70
0
 10
158.267665
 20
10.181505
 30
0.0
 10
158.945686
 20
10.571528
 30
0.0
 10
159.703691
 20
10.773511
 30
0.0
  0
LWPOLYLINE
  5
163
100
AcDbEntity
  8
0
 62
7
100
AcDbPolyline
 90
2
 70
0
 10
159.555683
 20
11.901509
 30
0.0
 10
159.703691
 20
10.773511
 30
0.0
  0
LWPOLYLINE
  5
164
100
AcDbEntity
  8
0
 62
7
100
AcDbPolyline
 90
2
 70
0
 10
150.631684
 20
10.729510
 30
0.0
 10
159.555683
 20
11.901509
 30
0.0
  0
LWPOLYLINE
  5
165
100
AcDbEntity
  8
0
 62
7
100
AcDbPolyline
 90
2
 70
0
 10
150.631684
 20
10.729510
 30
0.0
 10
151.171672
 20
6.625505
 30
0.0
  0
LWPOLYLINE
  5
166
100
AcDbEntity
  8
0
 62
7
100
AcDbPolyline
 90
2
 70
0
 10
151.171672
 20
5.843503
 30
0.0
 10
151.171672
 20
6.625505
 30
0.0
  0
LWPOLYLINE
  5
167
100
AcDbEntity
  8
0
 62
7
100
AcDbPolyline
 90
2
 70
0
 10
151.171672
 20
5.843503
 30
0.0
 10
150.967678
 20
5.085525
 30
0.0
  0
LWPOLYLINE
  5
168
100
AcDbEntity
  8
0
 62
7
100
AcDbPolyline
 90
2
 70
0
 10
150.575671
 20
4.407503
 30
0.0
 10
150.967678
 20
5.085525
 30
0.0
  0
LWPOLYLINE
  5
169
100
AcDbEntity
  8
0
 62
7
100
AcDbPolyline
 90
2
 70
0
 10
150.021660
 20
3.853519
 30
0.0
 10
150.575671
 20
4.407503
 30
0.0
  0
LWPOLYLINE
  5
16a
100
AcDbEntity
  8
0
 62
7
100
AcDbPolyline
 90
2
 70
0
 10
149.345676
 20
3.461512
 30
0.0
 10
150.021660
 20
3.853519
 30
0.0
  0
LWPOLYLINE
  5
16b
100
AcDbEntity
  8
0
 62
7
100
AcDbPolyline
 90
2
 70
0
 10
148.589682
 20
3.259529
 30
0.0
 10
149.345676
 20
3.461512
 30
0.0
  0
LWPOLYLINE
  5
16c
100
AcDbEntity
  8
0
 62
7
100
AcDbPolyline
 90
2
 70
0
 10
147.803685
 20
3.259529
 30
0.0
 10
148.589682
 20
3.259529
 30
0.0
  0
LWPOLYLINE
  5
16d
100
AcDbEntity
  8
0
 62
7
100
AcDbPolyline
 90
2
 70
0
 10
147.047664
 20
3.461512
 30
0.0
 10
147.803685
 20
3.259529
 30
0.0
  0
LWPOLYLINE
  5
16e
100
AcDbEntity
  8
0
 62
7
100
AcDbPolyline
 90
2
 70
0
 10
146.371680
 20
3.853519
 30
0.0
 10
147.047664
 20
3.461512
 30
0.0
  0
LWPOLYLINE
  5
16f
100
AcDbEntity
  8
0
 62
7
100
AcDbPolyline
 90
2
 70
0
 10
145.815685
 20
4.407503
 30
0.0
 10
146.371680
 20
3.853519
 30
0.0
  0
LWPOLYLINE
  5
170
100
AcDbEntity
  8
0
 62
7
100
AcDbPolyline
 90
2
 70
0
 10
145.815685
 20
4.407503
 30
0.0
 10
145.425689
 20
5.085525
 30
0.0
  0
LWPOLYLINE
  5
171
100
AcDbEntity
  8
0
 62
7
100
AcDbPolyline
 90
2
 70
0
 10
145.221695
 20
5.843503
 30
0.0
 10
145.425689
 20
5.085525
 30
0.0
  0
LWPOLYLINE
  5
172
100
AcDbEntity
  8
0
 62
7
100
AcDbPolyline
 90
2
 70
0
 10
145.221695
 20
6.625505
 30
0.0
 10
145.221695
 20
5.843503
 30
0.0
  0
LWPOLYLINE
  5
173
100
AcDbEntity
  8
0
 62
7
100
AcDbPolyline
 90
2
 70
0
 10
145.221695
 20
6.625505
 30
0.0
 10
145.425689
 20
7.381526
 30
0.0
  0
LWPOLYLINE
  5
174
100
AcDbEntity
  8
0
 62
7
100
AcDbPolyline
 90
2
 70
0
 10
145.815685
 20
8.061505
 30
0.0
 10
145.425689
 20
7.381526
 30
0.0
  0
LWPOLYLINE
  5
175
100
AcDbEntity
  8
0
 62
7
100
AcDbPolyline
 90
2
 70
0
 10
145.815685
 20
8.061505
 30
0.0
 10
146.371680
 20
8.613505
 30
0.0
  0
LWPOLYLINE
  5
176
100
AcDbEntity
  8
0
 62
7
100
AcDbPolyline
 90
2
 70
0
 10
147.047664
 20
9.005512
 30
0.0
 10
146.371680
 20
8.613505
 30
0.0
  0
LWPOLYLINE
  5
177
100
AcDbEntity
  8
0
 62
7
100
AcDbPolyline
 90
2
 70
0
 10
147.803685
 20
9.207521
 30
0.0
 10
147.047664
 20
9.005512
 30
0.0
  0
LWPOLYLINE
  5
178
100
AcDbEntity
  8
0
 62
7
100
AcDbPolyline
 90
2
 70
0
 10
147.655677
 20
10.339514
 30
0.0
 10
147.803685
 20
9.207521
 30
0.0
  0
LWPOLYLINE
  5
179
100
AcDbEntity
  8
0
 62
7
100
AcDbPolyline
 90
2
 70
0
 10
138.731678
 20
9.167516
 30
0.0
 10
147.655677
 20
10.339514
 30
0.0
  0
LWPOLYLINE
  5
17a
100
AcDbEntity
  8
0
 62
7
100
AcDbPolyline
 90
2
 70
0
 10
138.731678
 20
9.167516
 30
0.0
 10
139.273677
 20
5.059516
 30
0.0
  0
LWPOLYLINE
  5
17b
100
AcDbEntity
  8
0
 62
7
100
AcDbPolyline
 90
2
 70
0
 10
139.273677
 20
4.277513
 30
0.0
 10
139.273677
 20
5.059516
 30
0.0
  0
LWPOLYLINE
  5
17c
100
AcDbEntity
  8
0
 62
7
100
AcDbPolyline
 90
2
 70
0
 10
139.273677
 20
4.277513
 30
0.0
 10
139.071667
 20
3.519509
 30
0.0
  0
LWPOLYLINE
  5
17d
100
AcDbEntity
  8
0
 62
7
100
AcDbPolyline
 90
2
 70
0
 10
138.679687
 20
2.841514
 30
0.0
 10
139.071667
 20
3.519509
 30
0.0
  0
LWPOLYLINE
  5
17e
100
AcDbEntity
  8
0
 62
7
100
AcDbPolyline
 90
2
 70
0
 10
138.679687
 20
2.841514
 30
0.0
 10
138.125676
 20
2.287529
 30
0.0
  0
LWPOLYLINE
  5
17f
100
AcDbEntity
  8
0
 62
7
100
AcDbPolyline
 90
2
 70
0
 10
137.447681
 20
1.895523
 30
0.0
 10
138.125676
 20
2.287529
 30
0.0
  0
LWPOLYLINE
  5
180
100
AcDbEntity
  8
0
 62
7
100
AcDbPolyline
 90
2
 70
0
 10
136.689677
 20
1.693513
 30
0.0
 10
137.447681
 20
1.895523
 30
0.0
  0
LWPOLYLINE
  5
181
100
AcDbEntity
  8
0
 62
7
100
AcDbPolyline
 90
2
 70
0
 10
135.907674
 20
1.693513
 30
0.0
 10
136.689677
 20
1.693513
 30
0.0
  0
LWPOLYLINE
  5
182
100
AcDbEntity
  8
0
 62
7
100
AcDbPolyline
 90
2
 70
0
 10
135.151680
 20
1.895523
 30
0.0
 10
135.907674
 20
1.693513
 30
0.0
  0
LWPOLYLINE
  5
183
100
AcDbEntity
  8
0
 62
7
100
AcDbPolyline
 90
2
 70
0
 10
134.471675
 20
2.287529
 30
0.0
 10
135.151680
 20
1.895523
 30
0.0
  0
LWPOLYLINE
  5
184
100
AcDbEntity
  8
0
 62
7
100
AcDbPolyline
 90
2
 70
0
 10
134.471675
 20
2.287529
 30
0.0
 10
133.919674
 20
2.841514
 30
0.0
  0
LWPOLYLINE
  5
185
100
AcDbEntity
  8
0
 62
7
100
AcDbPolyline
 90
2
 70
0
 10
133.527694
 20
3.519509
 30
0.0
 10
133.919674
 20
2.841514
 30
0.0
  0
LWPOLYLINE
  5
186
100
AcDbEntity
  8
0
 62
7
100
AcDbPolyline
 90
2
 70
0
 10
133.527694
 20
3.519509
 30
0.0
 10
133.325685
 20
4.277513
 30
0.0
  0
LWPOLYLINE
  5
187
100
AcDbEntity
  8
0
 62
7
100
AcDbPolyline
 90
2
 70
0
 10
133.325685
 20
5.059516
 30
0.0
 10
133.325685
 20
4.277513
 30
0.0
  0
LWPOLYLINE
  5
188
100
AcDbEntity
  8
0
 62
7
100
AcDbPolyline
 90
4
 70
0
 10
133.325685
 20
5.059516
 30
0.0
 10
133.527694
 20
5.815510
 30
0.0
 10
133.919674
 20
6.493505
 30
0.0
 10
134.471675
 20
7.047516
 30
0.0
  0
LWPOLYLINE
  5
189
100
AcDbEntity
  8
0
 62
7
100
AcDbPolyline
 90
2
 70
0
 10
135.151680
 20
7.439522
 30
0.0
 10
134.471675
 20
7.047516
 30
0.0
  0
LWPOLYLINE
  5
18a
100
AcDbEntity
  8
0
 62
7
100
AcDbPolyline
 90
2
 70
0
 10
135.151680
 20
7.439522
 30
0.0
 10
135.907674
 20
7.643516
 30
0.0
  0
LWPOLYLINE
  5
18b
100
AcDbEntity
  8
0
 62
7
100
AcDbPolyline
 90
2
 70
0
 10
135.757682
 20
8.777520
 30
0.0
 10
135.907674
 20
7.643516
 30
0.0
  0
LWPOLYLINE
  5
18c
100
AcDbEntity
  8
0
 62
7
100
AcDbPolyline
 90
2
 70
0
 10
126.835667
 20
7.605522
 30
0.0
 10
135.757682
 20
8.777520
 30
0.0
  0
LWPOLYLINE
  5
18d
100
AcDbEntity
  8
0
 62
7
100
AcDbPolyline
 90
3
 70
0
 10
126.835667
 20
7.605522
 30
0.0
 10
127.375682
 20
3.491516
 30
0.0
 10
127.375682
 20
2.709513
 30
0.0
  0
LWPOLYLINE
  5
18e
100
AcDbEntity
  8
0
 62
7
100
AcDbPolyline
 90
2
 70
0
 10
127.171662
 20
1.953519
 30
0.0
 10
127.375682
 20
2.709513
 30
0.0
  0
LWPOLYLINE
  5
18f
100
AcDbEntity
  8
0
 62
7
100
AcDbPolyline
 90
2
 70
0
 10
126.781666
 20
1.275525
 30
0.0
 10
127.171662
 20
1.953519
 30
0.0
  0
LWPOLYLINE
  5
190
100
AcDbEntity
  8
0
 62
7
100
AcDbPolyline
 90
2
 70
0
 10
126.227681
 20
0.721513
 30
0.0
 10
126.781666
 20
1.275525
 30
0.0
  0
LWPOLYLINE
  5
191
100
AcDbEntity
  8
0
 62
7
100
AcDbPolyline
 90
2
 70
0
 10
125.549686
 20
0.329507
 30
0.0
 10
126.227681
 20
0.721513
 30
0.0
  0
LWPOLYLINE
  5
192
100
AcDbEntity
  8
0
 62
7
100
AcDbPolyline
 90
2
 70
0
 10
124.793666
 20
0.127524
 30
0.0
 10
125.549686
 20
0.329507
 30
0.0
  0
LWPOLYLINE
  5
193
100
AcDbEntity
  8
0
 62
7
100
AcDbPolyline
 90
2
 70
0
 10
124.009679
 20
0.127524
 30
0.0
 10
124.793666
 20
0.127524
 30
0.0
  0
LWPOLYLINE
  5
194
100
AcDbEntity
  8
0
 62
7
100
AcDbPolyline
 90
2
 70
0
 10
123.253685
 20
0.329507
 30
0.0
 10
124.009679
 20
0.127524
 30
0.0
  0
LWPOLYLINE
  5
195
100
AcDbEntity
  8
0
 62
7
100
AcDbPolyline
 90
2
 70
0
 10
122.573680
 20
0.721513
 30
0.0
 10
123.253685
 20
0.329507
 30
0.0
  0
LWPOLYLINE
  5
196
100
AcDbEntity
  8
0
 62
7
100
AcDbPolyline
 90
2
 70
0
 10
122.573680
 20
0.721513
 30
0.0
 10
122.019669
 20
1.275525
 30
0.0
  0
LWPOLYLINE
  5
197
100
AcDbEntity
  8
0
 62
7
100
AcDbPolyline
 90
2
 70
0
 10
121.629673
 20
1.953519
 30
0.0
 10
122.019669
 20
1.275525
 30
0.0
  0
LWPOLYLINE
  5
198
100
AcDbEntity
  8
0
 62
7
100
AcDbPolyline
 90
2
 70
0
 10
121.629673
 20
1.953519
 30
0.0
 10
121.427690
 20
2.709513
 30
0.0
  0
LWPOLYLINE
  5
199
100
AcDbEntity
  8
0
 62
7
100
AcDbPolyline
 90
2
 70
0
 10
121.427690
 20
3.491516
 30
0.0
 10
121.427690
 20
2.709513
 30
0.0
  0
LWPOLYLINE
  5
19a
100
AcDbEntity
  8
0
 62
7
100
AcDbPolyline
 90
2
 70
0
 10
121.629673
 20
4.249521
 30
0.0
 10
121.427690
 20
3.491516
 30
0.0
  0
LWPOLYLINE
  5
19b
100
AcDbEntity
  8
0
 62
7
100
AcDbPolyline
 90
2
 70
0
 10
121.629673
 20
4.249521
 30
0.0
 10
122.019669
 20
4.927515
 30
0.0
  0
LWPOLYLINE
  5
19c
100
AcDbEntity
  8
0
 62
7
100
AcDbPolyline
 90
2
 70
0
 10
122.573680
 20
5.481526
 30
0.0
 10
122.019669
 20
4.927515
 30
0.0
  0
LWPOLYLINE
  5
19d
100
AcDbEntity
  8
0
 62
7
100
AcDbPolyline
 90
2
 70
0
 10
122.573680
 20
5.481526
 30
0.0
 10
123.253685
 20
5.873507
 30
0.0
  0
LWPOLYLINE
  5
19e
100
AcDbEntity
  8
0
 62
7
100
AcDbPolyline
 90
2
 70
0
 10
124.009679
 20
6.075516
 30
0.0
 10
123.253685
 20
5.873507
 30
0.0
  0
LWPOLYLINE
  5
19f
100
AcDbEntity
  8
0
 62
7
100
AcDbPolyline
 90
2
 70
0
 10
123.859687
 20
7.215526
 30
0.0
 10
124.009679
 20
6.075516
 30
0.0
  0
LWPOLYLINE
  5
1a0
100
AcDbEntity
  8
0
 62
7
100
AcDbPolyline
 90
2
 70
0
 10
104.277689
 20
4.643512
 30
0.0
 10
123.859687
 20
7.215526
 30
0.0
  0
LWPOLYLINE
  5
1a1
100
AcDbEntity
  8
0
 62
7
100
AcDbPolyline
 90
7
 70
0
 10
104.277689
 20
4.643512
 30
0.0
 10
103.007663
 20
1.577520
 30
0.0
 10
102.531677
 20
0.957522
 30
0.0
 10
101.909668
 20
0.479526
 30
0.0
 10
101.187673
 20
0.179515
 30
0.0
 10
100.409666
 20
0.079528
 30
0.0
 10
62.737683
 20
0.079528
 30
0.0
  0
LWPOLYLINE
  5
1a2
100
AcDbEntity
  8
0
 62
7
100
AcDbPolyline
 90
2
 70
0
 10
61.959675
 20
0.179515
 30
0.0
 10
62.737682
 20
0.079528
 30
0.0
  0
LWPOLYLINE
  5
1a3
100
AcDbEntity
  8
0
 62
7
100
AcDbPolyline
 90
2
 70
0
 10
61.237680
 20
0.479526
 30
0.0
 10
61.959675
 20
0.179515
 30
0.0
  0
LWPOLYLINE
  5
1a4
100
AcDbEntity
  8
0
 62
7
100
AcDbPolyline
 90
2
 70
0
 10
60.615671
 20
0.957522
 30
0.0
 10
61.237680
 20
0.479526
 30
0.0
  0
LWPOLYLINE
  5
1a5
100
AcDbEntity
  8
0
 62
7
100
AcDbPolyline
 90
2
 70
0
 10
60.139686
 20
1.577520
 30
0.0
 10
60.615671
 20
0.957522
 30
0.0
  0
LWPOLYLINE
  5
1a6
100
AcDbEntity
  8
0
 62
7
100
AcDbPolyline
 90
2
 70
0
 10
58.869659
 20
4.643512
 30
0.0
 10
60.139686
 20
1.577520
 30
0.0
  0
LWPOLYLINE
  5
1a7
100
AcDbEntity
  8
0
 62
7
100
AcDbPolyline
 90
2
 70
0
 10
39.287662
 20
7.215526
 30
0.0
 10
58.869659
 20
4.643512
 30
0.0
  0
LWPOLYLINE
  5
1a8
100
AcDbEntity
  8
0
 62
7
100
AcDbPolyline
 90
2
 70
0
 10
39.287662
 20
7.215526
 30
0.0
 10
39.137669
 20
6.075516
 30
0.0
  0
LWPOLYLINE
  5
1a9
100
AcDbEntity
  8
0
 62
7
100
AcDbPolyline
 90
2
 70
0
 10
39.893663
 20
5.873507
 30
0.0
 10
39.137669
 20
6.075516
 30
0.0
  0
LWPOLYLINE
  5
1aa
100
AcDbEntity
  8
0
 62
7
100
AcDbPolyline
 90
4
 70
0
 10
39.893663
 20
5.873507
 30
0.0
 10
40.571685
 20
5.481526
 30
0.0
 10
41.127680
 20
4.927515
 30
0.0
 10
41.517676
 20
4.249521
 30
0.0
  0
LWPOLYLINE
  5
1ab
100
AcDbEntity
  8
0
 62
7
100
AcDbPolyline
 90
2
 70
0
 10
41.721670
 20
3.491516
 30
0.0
 10
41.517676
 20
4.249521
 30
0.0
  0
LWPOLYLINE
  5
1ac
100
AcDbEntity
  8
0
 62
7
100
AcDbPolyline
 90
2
 70
0
 10
41.721670
 20
3.491516
 30
0.0
 10
41.721670
 20
2.709513
 30
0.0
  0
LWPOLYLINE
  5
1ad
100
AcDbEntity
  8
0
 62
7
100
AcDbPolyline
 90
2
 70
0
 10
41.517676
 20
1.953519
 30
0.0
 10
41.721670
 20
2.709513
 30
0.0
  0
LWPOLYLINE
  5
1ae
100
AcDbEntity
  8
0
 62
7
100
AcDbPolyline
 90
3
 70
0
 10
41.517676
 20
1.953519
 30
0.0
 10
41.127680
 20
1.275525
 30
0.0
 10
40.571685
 20
0.721513
 30
0.0
  0
LWPOLYLINE
  5
1af
100
AcDbEntity
  8
0
 62
7
100
AcDbPolyline
 90
2
 70
0
 10
39.893663
 20
0.329507
 30
0.0
 10
40.571685
 20
0.721513
 30
0.0
  0
LWPOLYLINE
  5
1b0
100
AcDbEntity
  8
0
 62
7
100
AcDbPolyline
 90
2
 70
0
 10
39.137669
 20
0.127524
 30
0.0
 10
39.893663
 20
0.329507
 30
0.0
  0
LWPOLYLINE
  5
1b1
100
AcDbEntity
  8
0
 62
7
100
AcDbPolyline
 90
2
 70
0
 10
38.353682
 20
0.127524
 30
0.0
 10
39.137669
 20
0.127524
 30
0.0
  0
LWPOLYLINE
  5
1b2
100
AcDbEntity
  8
0
 62
7
100
AcDbPolyline
 90
2
 70
0
 10
37.597662
 20
0.329507
 30
0.0
 10
38.353682
 20
0.127524
 30
0.0
  0
LWPOLYLINE
  5
1b3
100
AcDbEntity
  8
0
 62
7
100
AcDbPolyline
 90
2
 70
0
 10
36.919667
 20
0.721513
 30
0.0
 10
37.597662
 20
0.329507
 30
0.0
  0
LWPOLYLINE
  5
1b4
100
AcDbEntity
  8
0
 62
7
100
AcDbPolyline
 90
2
 70
0
 10
36.919667
 20
0.721513
 30
0.0
 10
36.365683
 20
1.275525
 30
0.0
  0
LWPOLYLINE
  5
1b5
100
AcDbEntity
  8
0
 62
7
100
AcDbPolyline
 90
2
 70
0
 10
35.975660
 20
1.953519
 30
0.0
 10
36.365683
 20
1.275525
 30
0.0
  0
LWPOLYLINE
  5
1b6
100
AcDbEntity
  8
0
 62
7
100
AcDbPolyline
 90
2
 70
0
 10
35.975660
 20
1.953519
 30
0.0
 10
35.771667
 20
2.709513
 30
0.0
  0
LWPOLYLINE
  5
1b7
100
AcDbEntity
  8
0
 62
7
100
AcDbPolyline
 90
2
 70
0
 10
35.771667
 20
3.491516
 30
0.0
 10
35.771667
 20
2.709513
 30
0.0
  0
LWPOLYLINE
  5
1b8
100
AcDbEntity
  8
0
 62
7
100
AcDbPolyline
 90
2
 70
0
 10
36.311681
 20
7.605522
 30
0.0
 10
35.771667
 20
3.491516
 30
0.0
  0
LWPOLYLINE
  5
1b9
100
AcDbEntity
  8
0
 62
7
100
AcDbPolyline
 90
4
 70
0
 10
36.311681
 20
7.605522
 30
0.0
 10
27.389667
 20
8.777520
 30
0.0
 10
27.239674
 20
7.643516
 30
0.0
 10
27.995668
 20
7.439522
 30
0.0
  0
LWPOLYLINE
  5
1ba
100
AcDbEntity
  8
0
 62
7
100
AcDbPolyline
 90
2
 70
0
 10
28.675674
 20
7.047516
 30
0.0
 10
27.995668
 20
7.439522
 30
0.0
  0
LWPOLYLINE
  5
1bb
100
AcDbEntity
  8
0
 62
7
100
AcDbPolyline
 90
2
 70
0
 10
29.227674
 20
6.493505
 30
0.0
 10
28.675674
 20
7.047516
 30
0.0
  0
LWPOLYLINE
  5
1bc
100
AcDbEntity
  8
0
 62
7
100
AcDbPolyline
 90
2
 70
0
 10
29.227674
 20
6.493505
 30
0.0
 10
29.619681
 20
5.815510
 30
0.0
  0
LWPOLYLINE
  5
1bd
100
AcDbEntity
  8
0
 62
7
100
AcDbPolyline
 90
2
 70
0
 10
29.821664
 20
5.059516
 30
0.0
 10
29.619681
 20
5.815510
 30
0.0
  0
LWPOLYLINE
  5
1be
100
AcDbEntity
  8
0
 62
7
100
AcDbPolyline
 90
2
 70
0
 10
29.821664
 20
4.277513
 30
0.0
 10
29.821664
 20
5.059516
 30
0.0
  0
LWPOLYLINE
  5
1bf
100
AcDbEntity
  8
0
 62
7
100
AcDbPolyline
 90
2
 70
0
 10
29.821664
 20
4.277513
 30
0.0
 10
29.619681
 20
3.519509
 30
0.0
  0
LWPOLYLINE
  5
1c0
100
AcDbEntity
  8
0
 62
7
100
AcDbPolyline
 90
2
 70
0
 10
29.227674
 20
2.841514
 30
0.0
 10
29.619681
 20
3.519509
 30
0.0
  0
LWPOLYLINE
  5
1c1
100
AcDbEntity
  8
0
 62
7
100
AcDbPolyline
 90
2
 70
0
 10
28.675674
 20
2.287529
 30
0.0
 10
29.227674
 20
2.841514
 30
0.0
  0
LWPOLYLINE
  5
1c2
100
AcDbEntity
  8
0
 62
7
100
AcDbPolyline
 90
2
 70
0
 10
27.995668
 20
1.895523
 30
0.0
 10
28.675674
 20
2.287529
 30
0.0
  0
LWPOLYLINE
  5
1c3
100
AcDbEntity
  8
0
 62
7
100
AcDbPolyline
 90
2
 70
0
 10
27.239674
 20
1.693513
 30
0.0
 10
27.995668
 20
1.895523
 30
0.0
  0
LWPOLYLINE
  5
1c4
100
AcDbEntity
  8
0
 62
7
100
AcDbPolyline
 90
2
 70
0
 10
26.457672
 20
1.693513
 30
0.0
 10
27.239674
 20
1.693513
 30
0.0
  0
LWPOLYLINE
  5
1c5
100
AcDbEntity
  8
0
 62
7
100
AcDbPolyline
 90
2
 70
0
 10
25.699667
 20
1.895523
 30
0.0
 10
26.457672
 20
1.693513
 30
0.0
  0
LWPOLYLINE
  5
1c6
100
AcDbEntity
  8
0
 62
7
100
AcDbPolyline
 90
2
 70
0
 10
25.021672
 20
2.287529
 30
0.0
 10
25.699667
 20
1.895523
 30
0.0
  0
LWPOLYLINE
  5
1c7
100
AcDbEntity
  8
0
 62
7
100
AcDbPolyline
 90
2
 70
0
 10
24.467661
 20
2.841514
 30
0.0
 10
25.021672
 20
2.287529
 30
0.0
  0
LWPOLYLINE
  5
1c8
100
AcDbEntity
  8
0
 62
7
100
AcDbPolyline
 90
2
 70
0
 10
24.467661
 20
2.841514
 30
0.0
 10
24.075681
 20
3.519509
 30
0.0
  0
LWPOLYLINE
  5
1c9
100
AcDbEntity
  8
0
 62
7
100
AcDbPolyline
 90
2
 70
0
 10
23.873672
 20
4.277513
 30
0.0
 10
24.075681
 20
3.519509
 30
0.0
  0
LWPOLYLINE
  5
1ca
100
AcDbEntity
  8
0
 62
7
100
AcDbPolyline
 90
2
 70
0
 10
23.873672
 20
4.277513
 30
0.0
 10
23.873672
 20
5.059516
 30
0.0
  0
LWPOLYLINE
  5
1cb
100
AcDbEntity
  8
0
 62
7
100
AcDbPolyline
 90
2
 70
0
 10
24.415671
 20
9.167516
 30
0.0
 10
23.873672
 20
5.059516
 30
0.0
  0
LWPOLYLINE
  5
1cc
100
AcDbEntity
  8
0
 62
7
100
AcDbPolyline
 90
4
 70
0
 10
24.415671
 20
9.167516
 30
0.0
 10
15.491672
 20
10.339514
 30
0.0
 10
15.343664
 20
9.207521
 30
0.0
 10
16.097673
 20
9.005512
 30
0.0
  0
LWPOLYLINE
  5
1cd
100
AcDbEntity
  8
0
 62
7
100
AcDbPolyline
 90
2
 70
0
 10
16.775668
 20
8.613505
 30
0.0
 10
16.097673
 20
9.005512
 30
0.0
  0
LWPOLYLINE
  5
1ce
100
AcDbEntity
  8
0
 62
7
100
AcDbPolyline
 90
4
 70
0
 10
16.775668
 20
8.613505
 30
0.0
 10
17.329679
 20
8.061505
 30
0.0
 10
17.721659
 20
7.381526
 30
0.0
 10
17.925680
 20
6.625505
 30
0.0
  0
LWPOLYLINE
  5
1cf
100
AcDbEntity
  8
0
 62
7
100
AcDbPolyline
 90
2
 70
0
 10
17.925680
 20
5.843503
 30
0.0
 10
17.925680
 20
6.625505
 30
0.0
  0
LWPOLYLINE
  5
1d0
100
AcDbEntity
  8
0
 62
7
100
AcDbPolyline
 90
2
 70
0
 10
17.721659
 20
5.085525
 30
0.0
 10
17.925680
 20
5.843503
 30
0.0
  0
LWPOLYLINE
  5
1d1
100
AcDbEntity
  8
0
 62
7
100
AcDbPolyline
 90
2
 70
0
 10
17.721659
 20
5.085525
 30
0.0
 10
17.329679
 20
4.407503
 30
0.0
  0
LWPOLYLINE
  5
1d2
100
AcDbEntity
  8
0
 62
7
100
AcDbPolyline
 90
2
 70
0
 10
16.775668
 20
3.853519
 30
0.0
 10
17.329679
 20
4.407503
 30
0.0
  0
LWPOLYLINE
  5
1d3
100
AcDbEntity
  8
0
 62
7
100
AcDbPolyline
 90
2
 70
0
 10
16.097673
 20
3.461512
 30
0.0
 10
16.775668
 20
3.853519
 30
0.0
  0
LWPOLYLINE
  5
1d4
100
AcDbEntity
  8
0
 62
7
100
AcDbPolyline
 90
2
 70
0
 10
15.343664
 20
3.259529
 30
0.0
 10
16.097673
 20
3.461512
 30
0.0
  0
LWPOLYLINE
  5
1d5
100
AcDbEntity
  8
0
 62
7
100
AcDbPolyline
 90
2
 70
0
 10
14.559677
 20
3.259529
 30
0.0
 10
15.343664
 20
3.259529
 30
0.0
  0
LWPOLYLINE
  5
1d6
100
AcDbEntity
  8
0
 62
7
100
AcDbPolyline
 90
2
 70
0
 10
13.801672
 20
3.461512
 30
0.0
 10
14.559677
 20
3.259529
 30
0.0
  0
LWPOLYLINE
  5
1d7
100
AcDbEntity
  8
0
 62
7
100
AcDbPolyline
 90
2
 70
0
 10
13.125662
 20
3.853519
 30
0.0
 10
13.801672
 20
3.461512
 30
0.0
  0
LWPOLYLINE
  5
1d8
100
AcDbEntity
  8
0
 62
7
100
AcDbPolyline
 90
2
 70
0
 10
12.569666
 20
4.407503
 30
0.0
 10
13.125662
 20
3.853519
 30
0.0
  0
LWPOLYLINE
  5
1d9
100
AcDbEntity
  8
0
 62
7
100
AcDbPolyline
 90
2
 70
0
 10
12.179670
 20
5.085525
 30
0.0
 10
12.569666
 20
4.407503
 30
0.0
  0
LWPOLYLINE
  5
1da
100
AcDbEntity
  8
0
 62
7
100
AcDbPolyline
 90
2
 70
0
 10
11.975677
 20
5.843503
 30
0.0
 10
12.179670
 20
5.085525
 30
0.0
  0
LWPOLYLINE
  5
1db
100
AcDbEntity
  8
0
 62
7
100
AcDbPolyline
 90
2
 70
0
 10
11.975677
 20
5.843503
 30
0.0
 10
11.975677
 20
6.625505
 30
0.0
  0
LWPOLYLINE
  5
1dc
100
AcDbEntity
  8
0
 62
7
100
AcDbPolyline
 90
2
 70
0
 10
12.517676
 20
10.729510
 30
0.0
 10
11.975677
 20
6.625505
 30
0.0
  0
LWPOLYLINE
  5
1dd
100
AcDbEntity
  8
0
 62
7
100
AcDbPolyline
 90
3
 70
0
 10
12.517676
 20
10.729510
 30
0.0
 10
3.593677
 20
11.901509
 30
0.0
 10
3.443658
 20
10.773511
 30
0.0
  0
LWPOLYLINE
  5
1de
100
AcDbEntity
  8
0
 62
7
100
AcDbPolyline
 90
2
 70
0
 10
4.201663
 20
10.571528
 30
0.0
 10
3.443658
 20
10.773511
 30
0.0
  0
LWPOLYLINE
  5
1df
100
AcDbEntity
  8
0
 62
7
100
AcDbPolyline
 90
5
 70
0
 10
4.201663
 20
10.571528
 30
0.0
 10
4.879684
 20
10.181505
 30
0.0
 10
5.433669
 20
9.627521
 30
0.0
 10
5.825675
 20
8.949526
 30
0.0
 10
6.027658
 20
8.191521
 30
0.0
  0
LWPOLYLINE
  5
1e0
100
AcDbEntity
  8
0
 62
7
100
AcDbPolyline
 90
2
 70
0
 10
6.027658
 20
7.409519
 30
0.0
 10
6.027658
 20
8.191521
 30
0.0
  0
LWPOLYLINE
  5
1e1
100
AcDbEntity
  8
0
 62
7
100
AcDbPolyline
 90
2
 70
0
 10
5.825675
 20
6.653525
 30
0.0
 10
6.027658
 20
7.409519
 30
0.0
  0
LWPOLYLINE
  5
1e2
100
AcDbEntity
  8
0
 62
7
100
AcDbPolyline
 90
2
 70
0
 10
5.433669
 20
5.973519
 30
0.0
 10
5.825675
 20
6.653525
 30
0.0
  0
LWPOLYLINE
  5
1e3
100
AcDbEntity
  8
0
 62
7
100
AcDbPolyline
 90
2
 70
0
 10
5.433669
 20
5.973519
 30
0.0
 10
4.879684
 20
5.421519
 30
0.0
  0
LWPOLYLINE
  5
1e4
100
AcDbEntity
  8
0
 62
7
100
AcDbPolyline
 90
2
 70
0
 10
4.201663
 20
5.027528
 30
0.0
 10
4.879684
 20
5.421519
 30
0.0
  0
LWPOLYLINE
  5
1e5
100
AcDbEntity
  8
0
 62
7
100
AcDbPolyline
 90
2
 70
0
 10
3.443658
 20
4.827503
 30
0.0
 10
4.201663
 20
5.027528
 30
0.0
  0
LWPOLYLINE
  5
1e6
100
AcDbEntity
  8
0
 62
7
100
AcDbPolyline
 90
2
 70
0
 10
2.661682
 20
4.827503
 30
0.0
 10
3.443658
 20
4.827503
 30
0.0
  0
LWPOLYLINE
  5
1e7
100
AcDbEntity
  8
0
 62
7
100
AcDbPolyline
 90
2
 70
0
 10
1.905661
 20
5.027528
 30
0.0
 10
2.661682
 20
4.827503
 30
0.0
  0
LWPOLYLINE
  5
1e8
100
AcDbEntity
  8
0
 62
7
100
AcDbPolyline
 90
2
 70
0
 10
1.225682
 20
5.421519
 30
0.0
 10
1.905661
 20
5.027528
 30
0.0
  0
LWPOLYLINE
  5
1e9
100
AcDbEntity
  8
0
 62
7
100
AcDbPolyline
 90
2
 70
0
 10
0.673682
 20
5.973519
 30
0.0
 10
1.225682
 20
5.421519
 30
0.0
  0
LWPOLYLINE
  5
1ea
100
AcDbEntity
  8
0
 62
7
100
AcDbPolyline
 90
2
 70
0
 10
0.281675
 20
6.653525
 30
0.0
 10
0.673682
 20
5.973519
 30
0.0
  0
LWPOLYLINE
  5
1eb
100
AcDbEntity
  8
0
 62
7
100
AcDbPolyline
 90
2
 70
0
 10
0.079666
 20
7.409519
 30
0.0
 10
0.281675
 20
6.653525
 30
0.0
  0
LWPOLYLINE
  5
1ec
100
AcDbEntity
  8
0
 62
7
100
AcDbPolyline
 90
2
 70
0
 10
0.079666
 20
7.409519
 30
0.0
 10
0.079666
 20
8.191521
 30
0.0
  0
LWPOLYLINE
  5
1ed
100
AcDbEntity
  8
0
 62
7
100
AcDbPolyline
 90
2
 70
0
 10
2.823686
 20
29.039524
 30
0.0
 10
0.079666
 20
8.191521
 30
0.0
  0
LWPOLYLINE
  5
1ee
100
AcDbEntity
  8
0
 62
7
100
AcDbPolyline
 90
3
 70
0
 10
2.823686
 20
29.039524
 30
0.0
 10
3.025669
 20
29.797528
 30
0.0
 10
3.417676
 20
30.475523
 30
0.0
  0
LWPOLYLINE
  5
1ef
100
AcDbEntity
  8
0
 62
7
100
AcDbPolyline
 90
2
 70
0
 10
3.971660
 20
31.029508
 30
0.0
 10
3.417676
 20
30.475523
 30
0.0
  0
LWPOLYLINE
  5
1f0
100
AcDbEntity
  8
0
 62
7
100
AcDbPolyline
 90
2
 70
0
 10
3.971660
 20
31.029508
 30
0.0
 10
4.649682
 20
31.421515
 30
0.0
  0
LWPOLYLINE
  5
1f1
100
AcDbEntity
  8
0
 62
7
100
AcDbPolyline
 90
2
 70
0
 10
5.405676
 20
31.621513
 30
0.0
 10
4.649682
 20
31.421514
 30
0.0
  0
LWPOLYLINE
  5
1f2
100
AcDbEntity
  8
0
 62
7
100
AcDbPolyline
 90
4
 70
0
 10
5.405676
 20
31.621513
 30
0.0
 10
6.189662
 20
31.621513
 30
0.0
 10
6.945656
 20
31.421514
 30
0.0
 10
7.623678
 20
31.029508
 30
0.0
  0
LWPOLYLINE
  5
1f3
100
AcDbEntity
  8
0
 62
7
100
AcDbPolyline
 90
2
 70
0
 10
8.177662
 20
30.475523
 30
0.0
 10
7.623678
 20
31.029508
 30
0.0
  0
LWPOLYLINE
  5
1f4
100
AcDbEntity
  8
0
 62
7
100
AcDbPolyline
 90
2
 70
0
 10
8.177662
 20
30.475523
 30
0.0
 10
8.569669
 20
29.797528
 30
0.0
  0
LWPOLYLINE
  5
1f5
100
AcDbEntity
  8
0
 62
7
100
AcDbPolyline
 90
2
 70
0
 10
8.773663
 20
29.039524
 30
0.0
 10
8.569669
 20
29.797528
 30
0.0
  0
LWPOLYLINE
  5
1f6
100
AcDbEntity
  8
0
 62
7
100
AcDbPolyline
 90
2
 70
0
 10
8.773663
 20
29.039524
 30
0.0
 10
8.773663
 20
28.255510
 30
0.0
  0
LWPOLYLINE
  5
1f7
100
AcDbEntity
  8
0
 62
7
100
AcDbPolyline
 90
2
 70
0
 10
8.569669
 20
27.501527
 30
0.0
 10
8.773663
 20
28.255510
 30
0.0
  0
LWPOLYLINE
  5
1f8
100
AcDbEntity
  8
0
 62
7
100
AcDbPolyline
 90
2
 70
0
 10
8.177662
 20
26.821522
 30
0.0
 10
8.569669
 20
27.501527
 30
0.0
  0
LWPOLYLINE
  5
1f9
100
AcDbEntity
  8
0
 62
7
100
AcDbPolyline
 90
2
 70
0
 10
8.177662
 20
26.821522
 30
0.0
 10
7.623678
 20
26.269521
 30
0.0
  0
LWPOLYLINE
  5
1fa
100
AcDbEntity
  8
0
 62
7
100
AcDbPolyline
 90
2
 70
0
 10
6.945656
 20
25.875530
 30
0.0
 10
7.623678
 20
26.269521
 30
0.0
  0
LWPOLYLINE
  5
1fb
100
AcDbEntity
  8
0
 62
7
100
AcDbPolyline
 90
2
 70
0
 10
6.189662
 20
25.675505
 30
0.0
 10
6.945656
 20
25.875530
 30
0.0
  0
LWPOLYLINE
  5
1fc
100
AcDbEntity
  8
0
 62
7
100
AcDbPolyline
 90
2
 70
0
 10
6.189662
 20
25.675505
 30
0.0
 10
5.405676
 20
25.675505
 30
0.0
  0
LWPOLYLINE
  5
1fd
100
AcDbEntity
  8
0
 62
7
100
AcDbPolyline
 90
2
 70
0
 10
5.211683
 20
24.205507
 30
0.0
 10
5.405676
 20
25.675505
 30
0.0
  0
LWPOLYLINE
  5
1fe
100
AcDbEntity
  8
0
 62
7
100
AcDbPolyline
 90
2
 70
0
 10
5.211683
 20
24.205507
 30
0.0
 10
14.135682
 20
23.035519
 30
0.0
  0
LWPOLYLINE
  5
1ff
100
AcDbEntity
  8
0
 62
7
100
AcDbPolyline
 90
2
 70
0
 10
14.719670
 20
27.473508
 30
0.0
 10
14.135682
 20
23.035519
 30
0.0
  0
LWPOLYLINE
  5
200
100
AcDbEntity
  8
0
 62
7
100
AcDbPolyline
 90
2
 70
0
 10
14.923664
 20
28.229528
 30
0.0
 10
14.719670
 20
27.473508
 30
0.0
  0
LWPOLYLINE
  5
201
100
AcDbEntity
  8
0
 62
7
100
AcDbPolyline
 90
4
 70
0
 10
14.923664
 20
28.229528
 30
0.0
 10
15.315671
 20
28.909507
 30
0.0
 10
15.869682
 20
29.461508
 30
0.0
 10
16.547677
 20
29.853514
 30
0.0
  0
LWPOLYLINE
  5
202
100
AcDbEntity
  8
0
 62
7
100
AcDbPolyline
 90
2
 70
0
 10
17.303671
 20
30.055524
 30
0.0
 10
16.547677
 20
29.853514
 30
0.0
  0
LWPOLYLINE
  5
203
100
AcDbEntity
  8
0
 62
7
100
AcDbPolyline
 90
2
 70
0
 10
18.085673
 20
30.055524
 30
0.0
 10
17.303671
 20
30.055524
 30
0.0
  0
LWPOLYLINE
  5
204
100
AcDbEntity
  8
0
 62
7
100
AcDbPolyline
 90
2
 70
0
 10
18.843678
 20
29.853514
 30
0.0
 10
18.085673
 20
30.055524
 30
0.0
  0
LWPOLYLINE
  5
205
100
AcDbEntity
  8
0
 62
7
100
AcDbPolyline
 90
4
 70
0
 10
18.843678
 20
29.853514
 30
0.0
 10
19.521673
 20
29.461508
 30
0.0
 10
20.075684
 20
28.909507
 30
0.0
 10
20.467664
 20
28.229528
 30
0.0
  0
LWPOLYLINE
  5
206
100
AcDbEntity
  8
0
 62
7
100
AcDbPolyline
 90
2
 70
0
 10
20.669673
 20
27.473508
 30
0.0
 10
20.467664
 20
28.229528
 30
0.0
  0
LWPOLYLINE
  5
207
100
AcDbEntity
  8
0
 62
7
100
AcDbPolyline
 90
2
 70
0
 10
20.669673
 20
26.691505
 30
0.0
 10
20.669673
 20
27.473508
 30
0.0
  0
LWPOLYLINE
  5
208
100
AcDbEntity
  8
0
 62
7
100
AcDbPolyline
 90
2
 70
0
 10
20.669673
 20
26.691505
 30
0.0
 10
20.467664
 20
25.933527
 30
0.0
  0
LWPOLYLINE
  5
209
100
AcDbEntity
  8
0
 62
7
100
AcDbPolyline
 90
2
 70
0
 10
20.075684
 20
25.255506
 30
0.0
 10
20.467664
 20
25.933527
 30
0.0
  0
LWPOLYLINE
  5
20a
100
AcDbEntity
  8
0
 62
7
100
AcDbPolyline
 90
2
 70
0
 10
19.521673
 20
24.701521
 30
0.0
 10
20.075684
 20
25.255506
 30
0.0
  0
LWPOLYLINE
  5
20b
100
AcDbEntity
  8
0
 62
7
100
AcDbPolyline
 90
2
 70
0
 10
18.843678
 20
24.309515
 30
0.0
 10
19.521673
 20
24.701521
 30
0.0
  0
LWPOLYLINE
  5
20c
100
AcDbEntity
  8
0
 62
7
100
AcDbPolyline
 90
2
 70
0
 10
18.085673
 20
24.107505
 30
0.0
 10
18.843678
 20
24.309515
 30
0.0
  0
LWPOLYLINE
  5
20d
100
AcDbEntity
  8
0
 62
7
100
AcDbPolyline
 90
2
 70
0
 10
17.303671
 20
24.107505
 30
0.0
 10
18.085673
 20
24.107505
 30
0.0
  0
LWPOLYLINE
  5
20e
100
AcDbEntity
  8
0
 62
7
100
AcDbPolyline
 90
2
 70
0
 10
17.111662
 20
22.643513
 30
0.0
 10
17.303671
 20
24.107505
 30
0.0
  0
LWPOLYLINE
  5
20f
100
AcDbEntity
  8
0
 62
7
100
AcDbPolyline
 90
2
 70
0
 10
17.111662
 20
22.643513
 30
0.0
 10
26.035661
 20
21.473525
 30
0.0
  0
LWPOLYLINE
  5
210
100
AcDbEntity
  8
0
 62
7
100
AcDbPolyline
 90
2
 70
0
 10
26.617665
 20
25.907518
 30
0.0
 10
26.035661
 20
21.473525
 30
0.0
  0
LWPOLYLINE
  5
211
100
AcDbEntity
  8
0
 62
7
100
AcDbPolyline
 90
2
 70
0
 10
26.821659
 20
26.663512
 30
0.0
 10
26.617665
 20
25.907518
 30
0.0
  0
LWPOLYLINE
  5
212
100
AcDbEntity
  8
0
 62
7
100
AcDbPolyline
 90
3
 70
0
 10
26.821659
 20
26.663512
 30
0.0
 10
27.211681
 20
27.341507
 30
0.0
 10
27.767677
 20
27.895518
 30
0.0
  0
LWPOLYLINE
  5
213
100
AcDbEntity
  8
0
 62
7
100
AcDbPolyline
 90
2
 70
0
 10
28.443661
 20
28.287525
 30
0.0
 10
27.767677
 20
27.895518
 30
0.0
  0
LWPOLYLINE
  5
214
100
AcDbEntity
  8
0
 62
7
100
AcDbPolyline
 90
4
 70
0
 10
28.443661
 20
28.287525
 30
0.0
 10
29.201666
 20
28.491519
 30
0.0
 10
29.985679
 20
28.491519
 30
0.0
 10
30.741673
 20
28.287525
 30
0.0
  0
LWPOLYLINE
  5
215
100
AcDbEntity
  8
0
 62
7
100
AcDbPolyline
 90
2
 70
0
 10
31.419668
 20
27.895518
 30
0.0
 10
30.741673
 20
28.287525
 30
0.0
  0
LWPOLYLINE
  5
216
100
AcDbEntity
  8
0
 62
7
100
AcDbPolyline
 90
4
 70
0
 10
31.419668
 20
27.895518
 30
0.0
 10
31.973679
 20
27.341507
 30
0.0
 10
32.363675
 20
26.663512
 30
0.0
 10
32.567668
 20
25.907518
 30
0.0
  0
LWPOLYLINE
  5
217
100
AcDbEntity
  8
0
 62
7
100
AcDbPolyline
 90
2
 70
0
 10
32.567668
 20
25.125516
 30
0.0
 10
32.567668
 20
25.907518
 30
0.0
  0
LWPOLYLINE
  5
218
100
AcDbEntity
  8
0
 62
7
100
AcDbPolyline
 90
2
 70
0
 10
32.363675
 20
24.367511
 30
0.0
 10
32.567668
 20
25.125516
 30
0.0
  0
LWPOLYLINE
  5
219
100
AcDbEntity
  8
0
 62
7
100
AcDbPolyline
 90
2
 70
0
 10
32.363675
 20
24.367511
 30
0.0
 10
31.973679
 20
23.689516
 30
0.0
  0
LWPOLYLINE
  5
21a
100
AcDbEntity
  8
0
 62
7
100
AcDbPolyline
 90
2
 70
0
 10
31.419668
 20
23.135505
 30
0.0
 10
31.973679
 20
23.689516
 30
0.0
  0
LWPOLYLINE
  5
21b
100
AcDbEntity
  8
0
 62
7
100
AcDbPolyline
 90
2
 70
0
 10
30.741673
 20
22.743525
 30
0.0
 10
31.419668
 20
23.135505
 30
0.0
  0
LWPOLYLINE
  5
21c
100
AcDbEntity
  8
0
 62
7
100
AcDbPolyline
 90
2
 70
0
 10
29.985679
 20
22.541516
 30
0.0
 10
30.741673
 20
22.743525
 30
0.0
  0
LWPOLYLINE
  5
21d
100
AcDbEntity
  8
0
 62
7
100
AcDbPolyline
 90
2
 70
0
 10
29.201666
 20
22.541516
 30
0.0
 10
29.985679
 20
22.541516
 30
0.0
  0
LWPOLYLINE
  5
21e
100
AcDbEntity
  8
0
 62
7
100
AcDbPolyline
 90
2
 70
0
 10
29.009684
 20
21.081518
 30
0.0
 10
29.201666
 20
22.541516
 30
0.0
  0
LWPOLYLINE
  5
21f
100
AcDbEntity
  8
0
 62
7
100
AcDbPolyline
 90
2
 70
0
 10
29.009684
 20
21.081518
 30
0.0
 10
37.933683
 20
19.909520
 30
0.0
  0
LWPOLYLINE
  5
220
100
AcDbEntity
  8
0
 62
7
100
AcDbPolyline
 90
2
 70
0
 10
38.517671
 20
24.341529
 30
0.0
 10
37.933683
 20
19.909520
 30
0.0
  0
LWPOLYLINE
  5
221
100
AcDbEntity
  8
0
 62
7
100
AcDbPolyline
 90
2
 70
0
 10
38.717670
 20
25.097523
 30
0.0
 10
38.517671
 20
24.341529
 30
0.0
  0
LWPOLYLINE
  5
222
100
AcDbEntity
  8
0
 62
7
100
AcDbPolyline
 90
7
 70
0
 10
38.717670
 20
25.097523
 30
0.0
 10
39.111661
 20
25.775518
 30
0.0
 10
39.663687
 20
26.329529
 30
0.0
 10
40.343667
 20
26.721509
 30
0.0
 10
41.099661
 20
26.923518
 30
0.0
 10
41.881663
 20
26.923518
 30
0.0
 10
42.637684
 20
26.721509
 30
0.0
  0
LWPOLYLINE
  5
223
100
AcDbEntity
  8
0
 62
7
100
AcDbPolyline
 90
2
 70
0
 10
43.317663
 20
26.329529
 30
0.0
 10
42.637684
 20
26.721509
 30
0.0
  0
LWPOLYLINE
  5
224
100
AcDbEntity
  8
0
 62
7
100
AcDbPolyline
 90
3
 70
0
 10
43.317663
 20
26.329529
 30
0.0
 10
43.871674
 20
25.775518
 30
0.0
 10
44.263680
 20
25.097523
 30
0.0
  0
LWPOLYLINE
  5
225
100
AcDbEntity
  8
0
 62
7
100
AcDbPolyline
 90
2
 70
0
 10
44.465663
 20
24.341529
 30
0.0
 10
44.263680
 20
25.097523
 30
0.0
  0
LWPOLYLINE
  5
226
100
AcDbEntity
  8
0
 62
7
100
AcDbPolyline
 90
2
 70
0
 10
44.465663
 20
23.557516
 30
0.0
 10
44.465663
 20
24.341529
 30
0.0
  0
LWPOLYLINE
  5
227
100
AcDbEntity
  8
0
 62
7
100
AcDbPolyline
 90
4
 70
0
 10
44.465663
 20
23.557516
 30
0.0
 10
44.263680
 20
22.801522
 30
0.0
 10
43.871674
 20
22.123527
 30
0.0
 10
43.317663
 20
21.569516
 30
0.0
  0
LWPOLYLINE
  5
228
100
AcDbEntity
  8
0
 62
7
100
AcDbPolyline
 90
2
 70
0
 10
42.637684
 20
21.177509
 30
0.0
 10
43.317663
 20
21.569516
 30
0.0
  0
LWPOLYLINE
  5
229
100
AcDbEntity
  8
0
 62
7
100
AcDbPolyline
 90
2
 70
0
 10
41.881663
 20
20.975526
 30
0.0
 10
42.637684
 20
21.177509
 30
0.0
  0
LWPOLYLINE
  5
22a
100
AcDbEntity
  8
0
 62
7
100
AcDbPolyline
 90
2
 70
0
 10
41.881663
 20
20.975526
 30
0.0
 10
41.099661
 20
20.975526
 30
0.0
  0
LWPOLYLINE
  5
22b
100
AcDbEntity
  8
0
 62
7
100
AcDbPolyline
 90
2
 70
0
 10
40.907679
 20
19.519524
 30
0.0
 10
41.099661
 20
20.975526
 30
0.0
  0
LWPOLYLINE
  5
22c
100
AcDbEntity
  8
0
 62
7
100
AcDbPolyline
 90
3
 70
0
 10
40.907679
 20
19.519524
 30
0.0
 10
56.401679
 20
17.485513
 30
0.0
 10
56.404325
 20
17.671516
 30
0.0
  0
LWPOLYLINE
  5
22d
100
AcDbEntity
  8
0
 62
7
100
AcDbPolyline
 90
2
 70
0
 10
56.403663
 20
17.671516
 30
0.0
 10
56.419803
 20
17.845506
 30
0.0
  0
LWPOLYLINE
  5
22e
100
AcDbEntity
  8
0
 62
7
100
AcDbPolyline
 90
4
 70
0
 10
56.419671
 20
17.845506
 30
0.0
 10
56.445600
 20
18.011505
 30
0.0
 10
56.485684
 20
18.167530
 30
0.0
 10
56.535664
 20
18.315511
 30
0.0
  0
LWPOLYLINE
  5
22f
100
AcDbEntity
  8
0
 62
7
100
AcDbPolyline
 90
2
 70
0
 10
56.599667
 20
18.451507
 30
0.0
 10
56.535664
 20
18.315511
 30
0.0
  0
LWPOLYLINE
  5
230
100
AcDbEntity
  8
0
 62
7
100
AcDbPolyline
 90
15
 70
0
 10
56.599667
 20
18.451507
 30
0.0
 10
56.675681
 20
18.579513
 30
0.0
 10
56.761671
 20
18.697517
 30
0.0
 10
56.859673
 20
18.807504
 30
0.0
 10
56.969686
 20
18.905506
 30
0.0
 10
57.091686
 20
18.997528
 30
0.0
 10
57.225671
 20
19.077511
 30
0.0
 10
57.373679
 20
19.147520
 30
0.0
 10
57.529677
 20
19.209512
 30
0.0
 10
57.699672
 20
19.261529
 30
0.0
 10
57.881679
 20
19.303518
 30
0.0
 10
58.075671
 20
19.337517
 30
0.0
 10
58.279665
 20
19.361595
 30
0.0
 10
58.497682
 20
19.375538
 30
0.0
 10
58.725673
 20
19.381597
 30
0.0
  0
LWPOLYLINE
  5
231
100
AcDbEntity
  8
0
 62
7
100
AcDbPolyline
 90
2
 70
0
 10
104.421675
 20
19.381518
 30
0.0
 10
58.725673
 20
19.381518
 30
0.0
  0
LWPOLYLINE
  5
232
100
AcDbEntity
  8
0
 62
7
100
AcDbPolyline
 90
2
 70
0
 10
104.649667
 20
19.375512
 30
0.0
 10
104.421675
 20
19.381597
 30
0.0
  0
LWPOLYLINE
  5
233
100
AcDbEntity
  8
0
 62
7
100
AcDbPolyline
 90
2
 70
0
 10
104.867684
 20
19.361515
 30
0.0
 10
104.649667
 20
19.375538
 30
0.0
  0
LWPOLYLINE
  5
234
100
AcDbEntity
  8
0
 62
7
100
AcDbPolyline
 90
2
 70
0
 10
105.071677
 20
19.337517
 30
0.0
 10
104.867684
 20
19.361595
 30
0.0
  0
LWPOLYLINE
  5
235
100
AcDbEntity
  8
0
 62
7
100
AcDbPolyline
 90
2
 70
0
 10
105.265670
 20
19.303518
 30
0.0
 10
105.071677
 20
19.337517
 30
0.0
  0
LWPOLYLINE
  5
236
100
AcDbEntity
  8
0
 62
7
100
AcDbPolyline
 90
2
 70
0
 10
105.447677
 20
19.261529
 30
0.0
 10
105.265670
 20
19.303518
 30
0.0
  0
LWPOLYLINE
  5
237
100
AcDbEntity
  8
0
 62
7
100
AcDbPolyline
 90
2
 70
0
 10
105.617671
 20
19.209512
 30
0.0
 10
105.447677
 20
19.261529
 30
0.0
  0
LWPOLYLINE
  5
238
100
AcDbEntity
  8
0
 62
7
100
AcDbPolyline
 90
2
 70
0
 10
105.773670
 20
19.147520
 30
0.0
 10
105.617671
 20
19.209512
 30
0.0
  0
LWPOLYLINE
  5
239
100
AcDbEntity
  8
0
 62
7
100
AcDbPolyline
 90
2
 70
0
 10
105.919667
 20
19.077511
 30
0.0
 10
105.773670
 20
19.147520
 30
0.0
  0
LWPOLYLINE
  5
23a
100
AcDbEntity
  8
0
 62
7
100
AcDbPolyline
 90
2
 70
0
 10
105.919667
 20
19.077511
 30
0.0
 10
106.055689
 20
18.997528
 30
0.0
  0
LWPOLYLINE
  5
23b
100
AcDbEntity
  8
0
 62
7
100
AcDbPolyline
 90
2
 70
0
 10
99.967680
 20
14.465506
 30
0.0
 10
100.033667
 20
14.355519
 30
0.0
  0
LWPOLYLINE
  5
23c
100
AcDbEntity
  8
0
 62
7
100
AcDbPolyline
 90
2
 70
0
 10
99.887670
 20
14.565519
 30
0.0
 10
99.967680
 20
14.465506
 30
0.0
  0
LWPOLYLINE
  5
23d
100
AcDbEntity
  8
0
 62
7
100
AcDbPolyline
 90
2
 70
0
 10
99.793663
 20
14.653519
 30
0.0
 10
99.887670
 20
14.565519
 30
0.0
  0
LWPOLYLINE
  5
23e
100
AcDbEntity
  8
0
 62
7
100
AcDbPolyline
 90
2
 70
0
 10
99.691666
 20
14.731518
 30
0.0
 10
99.793663
 20
14.653519
 30
0.0
  0
LWPOLYLINE
  5
23f
100
AcDbEntity
  8
0
 62
7
100
AcDbPolyline
 90
2
 70
0
 10
99.579668
 20
14.795521
 30
0.0
 10
99.691666
 20
14.731518
 30
0.0
  0
LWPOLYLINE
  5
240
100
AcDbEntity
  8
0
 62
7
100
AcDbPolyline
 90
2
 70
0
 10
99.461664
 20
14.843517
 30
0.0
 10
99.579668
 20
14.795521
 30
0.0
  0
LWPOLYLINE
  5
241
100
AcDbEntity
  8
0
 62
7
100
AcDbPolyline
 90
2
 70
0
 10
99.337680
 20
14.875505
 30
0.0
 10
99.461664
 20
14.843517
 30
0.0
  0
LWPOLYLINE
  5
242
100
AcDbEntity
  8
0
 62
7
100
AcDbPolyline
 90
2
 70
0
 10
99.209675
 20
14.891512
 30
0.0
 10
99.337680
 20
14.875372
 30
0.0
  0
LWPOLYLINE
  5
243
100
AcDbEntity
  8
0
 62
7
100
AcDbPolyline
 90
2
 70
0
 10
99.081669
 20
14.891512
 30
0.0
 10
99.209675
 20
14.891512
 30
0.0
  0
LWPOLYLINE
  5
244
100
AcDbEntity
  8
0
 62
7
100
AcDbPolyline
 90
2
 70
0
 10
99.025684
 20
14.885506
 30
0.0
 10
99.081669
 20
14.891591
 30
0.0
  0
LWPOLYLINE
  5
245
100
AcDbEntity
  8
0
 62
7
100
AcDbPolyline
 90
3
 70
0
 10
99.025684
 20
14.885506
 30
0.0
 10
64.487690
 20
14.885506
 30
0.0
 10
64.391672
 20
14.897412
 30
0.0
  0
LWPOLYLINE
  5
246
100
AcDbEntity
  8
0
 62
7
100
AcDbPolyline
 90
13
 70
0
 10
64.391672
 20
14.897518
 30
0.0
 10
64.263667
 20
14.897518
 30
0.0
 10
64.135661
 20
14.879526
 30
0.0
 10
64.011678
 20
14.847512
 30
0.0
 10
63.893674
 20
14.799516
 30
0.0
 10
63.781675
 20
14.737525
 30
0.0
 10
63.677668
 20
14.661510
 30
0.0
 10
63.587683
 20
14.571525
 30
0.0
 10
63.507673
 20
14.471512
 30
0.0
 10
63.441686
 20
14.361525
 30
0.0
 10
63.387684
 20
14.243521
 30
0.0
 10
63.351675
 20
14.121522
 30
0.0
 10
63.331566
 20
13.995527
 30
0.0
  0
LWPOLYLINE
  5
247
100
AcDbEntity
  8
0
 62
7
100
AcDbPolyline
 90
2
 70
0
 10
63.331672
 20
13.995527
 30
0.0
 10
63.327703
 20
13.867522
 30
0.0
  0
LWPOLYLINE
  5
248
100
AcDbEntity
  8
0
 62
7
100
AcDbPolyline
 90
2
 70
0
 10
63.339662
 20
13.739516
 30
0.0
 10
63.327756
 20
13.867522
 30
0.0
  0
LWPOLYLINE
  5
249
100
AcDbEntity
  8
0
 62
7
100
AcDbPolyline
 90
2
 70
0
 10
63.367682
 20
13.613522
 30
0.0
 10
63.339662
 20
13.739516
 30
0.0
  0
LWPOLYLINE
  5
24a
100
AcDbEntity
  8
0
 62
7
100
AcDbPolyline
 90
2
 70
0
 10
63.416815
 20
13.483188
 30
0.0
 10
63.367682
 20
13.613522
 30
0.0
  0
LWPOLYLINE
  5
24b
100
AcDbEntity
  8
0
 62
7
100
AcDbPolyline
 90
2
 70
0
 10
66.229680
 20
5.607521
 30
0.0
 10
63.418694
 20
13.483876
 30
0.0
  0
LWPOLYLINE
  5
24c
100
AcDbEntity
  8
0
 62
7
100
AcDbPolyline
 90
2
 70
0
 10
66.277675
 20
5.475520
 30
0.0
 10
66.231664
 20
5.597520
 30
0.0
  0
LWPOLYLINE
  5
24d
100
AcDbEntity
  8
0
 62
7
100
AcDbPolyline
 90
2
 70
0
 10
66.335672
 20
5.363522
 30
0.0
 10
66.277675
 20
5.475520
 30
0.0
  0
LWPOLYLINE
  5
24e
100
AcDbEntity
  8
0
 62
7
100
AcDbPolyline
 90
2
 70
0
 10
66.409676
 20
5.257504
 30
0.0
 10
66.335672
 20
5.363522
 30
0.0
  0
LWPOLYLINE
  5
24f
100
AcDbEntity
  8
0
 62
7
100
AcDbPolyline
 90
2
 70
0
 10
66.495665
 20
5.161513
 30
0.0
 10
66.409676
 20
5.257504
 30
0.0
  0
LWPOLYLINE
  5
250
100
AcDbEntity
  8
0
 62
7
100
AcDbPolyline
 90
2
 70
0
 10
66.593667
 20
5.079518
 30
0.0
 10
66.495665
 20
5.161513
 30
0.0
  0
LWPOLYLINE
  5
251
100
AcDbEntity
  8
0
 62
7
100
AcDbPolyline
 90
2
 70
0
 10
66.699686
 20
5.009510
 30
0.0
 10
66.593667
 20
5.079518
 30
0.0
  0
LWPOLYLINE
  5
252
100
AcDbEntity
  8
0
 62
7
100
AcDbPolyline
 90
2
 70
0
 10
66.815679
 20
4.953524
 30
0.0
 10
66.699686
 20
5.009510
 30
0.0
  0
LWPOLYLINE
  5
253
100
AcDbEntity
  8
0
 62
7
100
AcDbPolyline
 90
2
 70
0
 10
66.939663
 20
4.913519
 30
0.0
 10
66.815679
 20
4.953524
 30
0.0
  0
LWPOLYLINE
  5
254
100
AcDbEntity
  8
0
 62
7
100
AcDbPolyline
 90
2
 70
0
 10
67.065684
 20
4.887510
 30
0.0
 10
66.939663
 20
4.913440
 30
0.0
  0
LWPOLYLINE
  5
255
100
AcDbEntity
  8
0
 62
7
100
AcDbPolyline
 90
2
 70
0
 10
67.191678
 20
4.879520
 30
0.0
 10
67.065684
 20
4.887457
 30
0.0
  0
LWPOLYLINE
  5
256
100
AcDbEntity
  8
0
 62
7
100
AcDbPolyline
 90
2
 70
0
 10
67.297670
 20
4.887510
 30
0.0
 10
67.191678
 20
4.879573
 30
0.0
  0
LWPOLYLINE
  5
257
100
AcDbEntity
  8
0
 62
7
100
AcDbPolyline
 90
2
 70
0
 10
96.241685
 20
4.887510
 30
0.0
 10
67.297670
 20
4.887510
 30
0.0
  0
LWPOLYLINE
  5
258
100
AcDbEntity
  8
0
 62
7
100
AcDbPolyline
 90
17
 70
0
 10
96.241685
 20
4.887510
 30
0.0
 10
96.289680
 20
4.883542
 30
0.0
 10
96.417686
 20
4.891453
 30
0.0
 10
96.543680
 20
4.917435
 30
0.0
 10
96.663669
 20
4.955508
 30
0.0
 10
96.781673
 20
5.013505
 30
0.0
 10
96.887665
 20
5.083514
 30
0.0
 10
96.985667
 20
5.165508
 30
0.0
 10
97.071683
 20
5.259515
 30
0.0
 10
97.143676
 20
5.365507
 30
0.0
 10
97.203683
 20
5.479516
 30
0.0
 10
97.249668
 20
5.599504
 30
0.0
 10
97.257605
 20
5.633530
 30
0.0
 10
100.071687
 20
13.515520
 30
0.0
 10
100.105660
 20
13.607516
 30
0.0
 10
100.133679
 20
13.733510
 30
0.0
 10
100.145585
 20
13.859505
 30
0.0
  0
LWPOLYLINE
  5
259
100
AcDbEntity
  8
0
 62
7
100
AcDbPolyline
 90
2
 70
0
 10
100.141670
 20
13.987510
 30
0.0
 10
100.145638
 20
13.859505
 30
0.0
  0
LWPOLYLINE
  5
25a
100
AcDbEntity
  8
0
 62
7
100
AcDbPolyline
 90
2
 70
0
 10
100.121667
 20
14.115516
 30
0.0
 10
100.141775
 20
13.987510
 30
0.0
  0
LWPOLYLINE
  5
25b
100
AcDbEntity
  8
0
 62
7
100
AcDbPolyline
 90
2
 70
0
 10
100.083673
 20
14.239526
 30
0.0
 10
100.121667
 20
14.115516
 30
0.0
  0
LWPOLYLINE
  5
25c
100
AcDbEntity
  8
0
 62
7
100
AcDbPolyline
 90
2
 70
0
 10
100.033667
 20
14.355519
 30
0.0
 10
100.083673
 20
14.239526
 30
0.0
  0
ENDSEC
  0
SECTION
  2
OBJECTS
  0
DICTIONARY
  5
C
330
0
100
AcDbDictionary
  3
ACAD_GROUP
350
D
  3
ACAD_MLINESTYLE
350
17
  0
DICTIONARY
  5
D
330
C
100
AcDbDictionary
  0
DICTIONARY
  5
1A
330
C
100
AcDbDictionary
  0
DICTIONARY
  5
17
330
C
100
AcDbDictionary
  3
STANDARD
350
18
  0
DICTIONARY
  5
19
330
C
100
AcDbDictionary
  0
ENDSEC
  0
EOF
